  0
SECTION
  2
HEADER
  9
$ACADVER
  1
AC1009
  9
$INSBASE
 10
27.102553
 20
110.8918139999999
 30
0.0
  9
$EXTMIN
 10
26.79189282822018
 20
110.8918139999999
 30
0.0
  9
$EXTMAX
 10
173.0375818425443
 20
200.7448338425444
 30
0.0
  9
$LIMMIN
 10
0.0
 20
0.0
  9
$LIMMAX
 10
420.0
 20
297.0
  9
$ORTHOMODE
 70
     0
  9
$REGENMODE
 70
     1
  9
$FILLMODE
 70
     1
  9
$QTEXTMODE
 70
     0
  9
$MIRRTEXT
 70
     0
  9
$DRAGMODE
 70
     2
  9
$LTSCALE
 40
1.0
  9
$OSMODE
 70
     0
  9
$ATTMODE
 70
     1
  9
$TEXTSIZE
 40
3.5
  9
$TRACEWID
 40
0.05
  9
$TEXTSTYLE
  7
STANDARD
  9
$CLAYER
  8
0
  9
$CELTYPE
  6
BYLAYER
  9
$CECOLOR
 62
   256
  9
$DIMSCALE
 40
1.0
  9
$DIMASZ
 40
2.5
  9
$DIMEXO
 40
1.0
  9
$DIMDLI
 40
8.0
  9
$DIMRND
 40
0.0
  9
$DIMDLE
 40
0.0
  9
$DIMEXE
 40
2.0
  9
$DIMTP
 40
0.1
  9
$DIMTM
 40
0.1
  9
$DIMTXT
 40
3.5
  9
$DIMCEN
 40
2.0
  9
$DIMTSZ
 40
0.0
  9
$DIMTOL
 70
     0
  9
$DIMLIM
 70
     0
  9
$DIMTIH
 70
     0
  9
$DIMTOH
 70
     0
  9
$DIMSE1
 70
     0
  9
$DIMSE2
 70
     0
  9
$DIMTAD
 70
     1
  9
$DIMZIN
 70
     8
  9
$DIMBLK
  1

  9
$DIMASO
 70
     0
  9
$DIMSHO
 70
     0
  9
$DIMPOST
  1

  9
$DIMAPOST
  1

  9
$DIMALT
 70
     0
  9
$DIMALTD
 70
     2
  9
$DIMALTF
 40
25.39999999999999
  9
$DIMLFAC
 40
1.0
  9
$DIMTOFL
 70
     1
  9
$DIMTVP
 40
0.0
  9
$DIMTIX
 70
     0
  9
$DIMSOXD
 70
     0
  9
$DIMSAH
 70
     0
  9
$DIMBLK1
  1

  9
$DIMBLK2
  1

  9
$DIMSTYLE
  2
*UNNAMED
  9
$DIMCLRD
 70
     0
  9
$DIMCLRE
 70
     0
  9
$DIMCLRT
 70
     0
  9
$DIMTFAC
 40
1.0
  9
$DIMGAP
 40
0.09
  9
$LUNITS
 70
     2
  9
$LUPREC
 70
     3
  9
$SKETCHINC
 40
0.1
  9
$FILLETRAD
 40
20.0
  9
$AUNITS
 70
     0
  9
$AUPREC
 70
     3
  9
$MENU
  1

  9
$ELEVATION
 40
0.0
  9
$PELEVATION
 40
0.0
  9
$THICKNESS
 40
0.0
  9
$LIMCHECK
 70
     0
  9
$BLIPMODE
 70
     0
  9
$CHAMFERA
 40
0.0
  9
$CHAMFERB
 40
0.0
  9
$SKPOLY
 70
     1
  9
$TDCREATE
 40
2449058.563229745
  9
$TDUPDATE
 40
2449393.449661111
  9
$TDINDWG
 40
0.0030774306
  9
$TDUSRTIMER
 40
0.0030774306
  9
$USRTIMER
 70
     1
  9
$ANGBASE
 50
0.0
  9
$ANGDIR
 70
     0
  9
$PDMODE
 70
     3
  9
$PDSIZE
 40
2.0
  9
$PLINEWID
 40
0.0
  9
$COORDS
 70
     2
  9
$SPLFRAME
 70
     0
  9
$SPLINETYPE
 70
     6
  9
$SPLINESEGS
 70
     8
  9
$ATTDIA
 70
     1
  9
$ATTREQ
 70
     1
  9
$HANDLING
 70
     1
  9
$HANDSEED
  5
8C
  9
$SURFTAB1
 70
     6
  9
$SURFTAB2
 70
     6
  9
$SURFTYPE
 70
     6
  9
$SURFU
 70
     6
  9
$SURFV
 70
     6
  9
$UCSNAME
  2

  9
$UCSORG
 10
0.0
 20
0.0
 30
0.0
  9
$UCSXDIR
 10
1.0
 20
0.0
 30
0.0
  9
$UCSYDIR
 10
0.0
 20
1.0
 30
0.0
  9
$PUCSNAME
  2

  9
$PUCSORG
 10
0.0
 20
0.0
 30
0.0
  9
$PUCSXDIR
 10
1.0
 20
0.0
 30
0.0
  9
$PUCSYDIR
 10
0.0
 20
1.0
 30
0.0
  9
$USERI1
 70
     0
  9
$USERI2
 70
     3
  9
$USERI3
 70
    15
  9
$USERI4
 70
     0
  9
$USERI5
 70
     0
  9
$USERR1
 40
0.0
  9
$USERR2
 40
1.0
  9
$USERR3
 40
0.0
  9
$USERR4
 40
1.0
  9
$USERR5
 40
0.0
  9
$WORLDVIEW
 70
     1
  9
$SHADEDGE
 70
     3
  9
$SHADEDIF
 70
    70
  9
$TILEMODE
 70
     1
  9
$MAXACTVP
 70
    16
  9
$PINSBASE
 10
0.0
 20
0.0
 30
0.0
  9
$PLIMCHECK
 70
     0
  9
$PEXTMIN
 10
1.000000000000000E+20
 20
1.000000000000000E+20
 30
1.000000000000000E+20
  9
$PEXTMAX
 10
-1.000000000000000E+20
 20
-1.000000000000000E+20
 30
-1.000000000000000E+20
  9
$PLIMMIN
 10
0.0
 20
0.0
  9
$PLIMMAX
 10
12.0
 20
9.0
  9
$UNITMODE
 70
     0
  9
$VISRETAIN
 70
     0
  9
$PLINEGEN
 70
     0
  9
$PSLTSCALE
 70
     0
  9
$TREEDEPTH
 70
  3020
  9
$DWGCODEPAGE
  3
undefined
  0
ENDSEC
  0
SECTION
  2
TABLES
  0
TABLE
  2
VPORT
 70
     2
  0
VPORT
  2
*ACTIVE
 70
     0
 10
0.0
 20
0.0
 11
1.0
 21
1.0
 12
99.5615485
 22
167.6922977605932
 13
0.0
 23
0.0
 14
7.0
 24
7.0
 15
0.0
 25
0.0
 16
0.0
 26
0.0
 36
1.0
 17
0.0
 27
0.0
 37
0.0
 40
113.6009675211864
 41
1.275675675675675
 42
50.0
 43
0.0
 44
0.0
 50
0.0
 51
0.0
 71
     0
 72
 10000
 73
     1
 74
     0
 75
     0
 76
     0
 77
     0
 78
     0
  0
ENDTAB
  0
TABLE
  2
LTYPE
 70
     2
  0
LTYPE
  2
AUSGEZOGEN
 70
    64
  3
Solid line
 72
    65
 73
     0
 40
0.0
  0
LTYPE
  2
ITEM-STRICHPUNKT
 70
    64
  3
__ . __ . __
 72
    65
 73
     4
 40
3.599999999999999
 49
2.399999999999999
 49
-0.6
 49
0.0
 49
-0.6
  0
ENDTAB
  0
TABLE
  2
LAYER
 70
     4
  0
LAYER
  2
0
 70
     0
 62
     7
  6
AUSGEZOGEN
  0
LAYER
  2
ITEM_50
 70
    64
 62
     7
  6
AUSGEZOGEN
  0
LAYER
  2
ITEM_HILFE
 70
    64
 62
     3
  6
AUSGEZOGEN
  0
LAYER
  2
ITEM_STP
 70
    64
 62
     4
  6
ITEM-STRICHPUNKT
  0
ENDTAB
  0
TABLE
  2
STYLE
 70
     1
  0
STYLE
  2
STANDARD
 70
     0
 40
0.0
 41
1.0
 50
0.0
 71
     0
 42
3.5
  3
iso
  4

  0
ENDTAB
  0
TABLE
  2
VIEW
 70
     5
  0
VIEW
  2
1
 70
     0
 40
146.0
 10
113.5
 20
206.0
 41
207.0
 11
0.0
 21
0.0
 31
1.0
 12
0.0
 22
0.0
 32
0.0
 42
50.0
 43
0.0
 44
0.0
 50
0.0
 71
     0
  0
VIEW
  2
2
 70
     0
 40
128.0
 10
309.5
 20
218.0
 41
193.0
 11
0.0
 21
0.0
 31
1.0
 12
0.0
 22
0.0
 32
0.0
 42
50.0
 43
0.0
 44
0.0
 50
0.0
 71
     0
  0
VIEW
  2
3
 70
     0
 40
154.0
 10
127.0
 20
89.0
 41
220.0
 11
0.0
 21
0.0
 31
1.0
 12
0.0
 22
0.0
 32
0.0
 42
50.0
 43
0.0
 44
0.0
 50
0.0
 71
     0
  0
VIEW
  2
4
 70
     0
 40
155.0
 10
311.0
 20
77.5
 41
218.0
 11
0.0
 21
0.0
 31
1.0
 12
0.0
 22
0.0
 32
0.0
 42
50.0
 43
0.0
 44
0.0
 50
0.0
 71
     0
  0
VIEW
  2
5
 70
     0
 40
123.0
 10
207.0
 20
149.5
 41
184.0
 11
0.0
 21
0.0
 31
1.0
 12
0.0
 22
0.0
 32
0.0
 42
50.0
 43
0.0
 44
0.0
 50
0.0
 71
     0
  0
ENDTAB
  0
TABLE
  2
UCS
 70
     0
  0
ENDTAB
  0
TABLE
  2
APPID
 70
     1
  0
APPID
  2
ACAD
 70
    64
  0
ENDTAB
  0
TABLE
  2
DIMSTYLE
 70
     0
  0
ENDTAB
  0
ENDSEC
  0
SECTION
  2
BLOCKS
  0
ENDSEC
  0
SECTION
  2
ENTITIES
  0
POINT
  8
ITEM_HILFE
  5
3B
 10
124.102553
 20
118.809805
 30
0.0
  0
POINT
  8
ITEM_HILFE
  5
3C
 10
33.102553
 20
164.809805
 30
0.0
  0
POINT
  8
ITEM_HILFE
  5
3D
 10
124.102553
 20
164.809805
 30
0.0
  0
LINE
  8
ITEM_50
  5
3E
 10
91.852553
 20
116.559805
 30
0.0
 11
156.352553
 21
116.559805
 31
0.0
  0
LINE
  8
ITEM_50
  5
3F
 10
169.102553
 20
164.809805
 30
0.0
 11
169.102553
 21
177.809805
 31
0.0
  0
LINE
  8
ITEM_50
  5
40
 10
158.102553
 20
178.809805
 30
0.0
 11
158.102553
 21
164.809805
 31
0.0
  0
LINE
  8
ITEM_50
  5
41
 10
158.102553
 20
164.809805
 30
0.0
 11
169.102553
 21
164.809805
 31
0.0
  0
LINE
  8
ITEM_50
  5
42
 10
162.1232779999999
 20
178.809805
 30
0.0
 11
162.1232779999999
 21
164.809805
 31
0.0
  0
LINE
  8
ITEM_STP
  5
43
 10
164.102553
 20
176.145787
 30
0.0
 11
164.102553
 21
160.309805
 31
0.0
  0
ARC
  8
ITEM_50
  5
44
 10
33.829374
 20
186.988256
 30
0.0
 40
3.0
 50
187.126921
 51
255.979222
  0
ARC
  8
ITEM_50
  5
45
 10
32.375731
 20
186.988256
 30
0.0
 40
3.0
 50
284.020778
 51
352.873079
  0
LINE
  8
ITEM_50
  5
46
 10
35.352553
 20
189.108843
 30
0.0
 11
35.352553
 21
186.6160529999999
 31
0.0
  0
LINE
  8
ITEM_50
  5
47
 10
30.852553
 20
189.108843
 30
0.0
 11
30.852553
 21
186.6160529999999
 31
0.0
  0
ARC
  8
ITEM_50
  5
48
 10
98.102553
 20
178.809805
 30
0.0
 40
12.02072599999999
 50
90.0
 51
180.0
  0
LINE
  8
ITEM_50
  5
49
 10
30.852553
 20
189.108843
 30
0.0
 11
35.352553
 21
189.108843
 31
0.0
  0
LINE
  8
ITEM_50
  5
4A
 10
91.852553
 20
121.059805
 30
0.0
 11
156.352553
 21
121.059805
 31
0.0
  0
ARC
  8
ITEM_50
  5
4B
 10
156.352553
 20
118.809805
 30
0.0
 40
2.25
 50
270.0
 51
90.0
  0
ARC
  8
ITEM_50
  5
4C
 10
91.852553
 20
118.809805
 30
0.0
 40
2.25
 50
90.0
 51
270.0
  0
CIRCLE
  8
ITEM_50
  5
4D
 10
84.102553
 20
118.809805
 30
0.0
 40
2.1
  0
CIRCLE
  8
ITEM_50
  5
4E
 10
164.102553
 20
118.809805
 30
0.0
 40
2.1
  0
ARC
  8
ITEM_50
  5
4F
 10
166.602553
 20
122.309805
 30
0.0
 40
1.5
 50
180.0
 51
0.0
  0
ARC
  8
ITEM_50
  5
50
 10
166.602553
 20
115.309805
 30
0.0
 40
1.5
 50
0.0
 51
180.0
  0
ARC
  8
ITEM_50
  5
51
 10
81.602553
 20
115.309805
 30
0.0
 40
1.5
 50
0.0
 51
180.0
  0
ARC
  8
ITEM_50
  5
52
 10
81.602553
 20
122.309805
 30
0.0
 40
1.5
 50
180.0
 51
0.0
  0
LINE
  8
ITEM_STP
  5
53
 10
33.102553
 20
172.809805
 30
0.0
 11
33.102553
 21
160.309805
 31
0.0
  0
LINE
  8
ITEM_STP
  5
54
 10
156.184561
 20
118.809805
 30
0.0
 11
172.020544
 21
118.809805
 31
0.0
  0
LINE
  8
ITEM_STP
  5
55
 10
84.102553
 20
126.7277959999999
 30
0.0
 11
84.102553
 21
110.8918139999999
 31
0.0
  0
LINE
  8
ITEM_STP
  5
56
 10
164.102553
 20
126.7277959999999
 30
0.0
 11
164.102553
 21
110.8918139999999
 31
0.0
  0
LINE
  8
ITEM_STP
  5
57
 10
76.184561
 20
118.809805
 30
0.0
 11
92.020544
 21
118.809805
 31
0.0
  0
LINE
  8
ITEM_STP
  5
58
 10
84.102553
 20
176.145787
 30
0.0
 11
84.102553
 21
160.309805
 31
0.0
  0
LINE
  8
ITEM_50
  5
59
 10
88.102553
 20
118.809805
 30
0.0
 11
89.602553
 21
118.809805
 31
0.0
  0
LINE
  8
ITEM_50
  5
5A
 10
81.277794
 20
116.7742269999999
 30
0.0
 11
80.102553
 21
118.809805
 31
0.0
  0
LINE
  8
ITEM_50
  5
5B
 10
81.277794
 20
120.845383
 30
0.0
 11
80.102553
 21
118.809805
 31
0.0
  0
LINE
  8
ITEM_50
  5
5C
 10
79.102553
 20
114.309805
 30
0.0
 11
79.102553
 21
123.309805
 31
0.0
  0
LINE
  8
ITEM_50
  5
5D
 10
86.081827
 20
122.309805
 30
0.0
 11
88.102553
 21
118.809805
 31
0.0
  0
LINE
  8
ITEM_50
  5
5E
 10
86.081827
 20
115.309805
 30
0.0
 11
88.102553
 21
118.809805
 31
0.0
  0
ARC
  8
ITEM_50
  5
5F
 10
80.602553
 20
123.309805
 30
0.0
 40
1.5
 50
90.0
 51
180.0
  0
ARC
  8
ITEM_50
  5
60
 10
80.602553
 20
114.309805
 30
0.0
 40
1.5
 50
180.0
 51
270.0
  0
ARC
  8
ITEM_50
  5
61
 10
79.302553
 20
122.509805
 30
0.0
 40
0.2
 50
180.0
 51
270.0
  0
ARC
  8
ITEM_50
  5
62
 10
79.302553
 20
115.109805
 30
0.0
 40
0.2
 50
90.0
 51
180.0
  0
ARC
  8
ITEM_50
  5
63
 10
168.902553
 20
115.109805
 30
0.0
 40
0.2
 50
0.0
 51
90.0
  0
ARC
  8
ITEM_50
  5
64
 10
168.902553
 20
122.509805
 30
0.0
 40
0.2
 50
270.0
 51
0.0
  0
ARC
  8
ITEM_50
  5
65
 10
36.802553
 20
196.6098049999999
 30
0.0
 40
0.2
 50
90.0
 51
180.0
  0
ARC
  8
ITEM_50
  5
66
 10
29.402553
 20
196.6098049999999
 30
0.0
 40
0.2
 50
0.0
 51
90.0
  0
LINE
  8
ITEM_50
  5
67
 10
36.802553
 20
196.809805
 30
0.0
 11
37.602553
 21
196.809805
 31
0.0
  0
ARC
  8
ITEM_50
  5
68
 10
167.602553
 20
114.309805
 30
0.0
 40
1.5
 50
270.0
 51
0.0
  0
ARC
  8
ITEM_50
  5
69
 10
167.602553
 20
123.309805
 30
0.0
 40
1.5
 50
0.0
 51
90.0
  0
ARC
  8
ITEM_50
  5
6A
 10
37.602553
 20
195.309805
 30
0.0
 40
1.5
 50
0.0
 51
90.0
  0
ARC
  8
ITEM_50
  5
6B
 10
28.602553
 20
195.309805
 30
0.0
 40
1.5
 50
90.0
 51
180.0
  0
LINE
  8
ITEM_50
  5
6C
 10
28.602553
 20
196.809805
 30
0.0
 11
29.402553
 21
196.809805
 31
0.0
  0
LINE
  8
ITEM_50
  5
6D
 10
166.927311
 20
116.7742269999999
 30
0.0
 11
168.102553
 21
118.809805
 31
0.0
  0
LINE
  8
ITEM_50
  5
6E
 10
166.927311
 20
120.845383
 30
0.0
 11
168.102553
 21
118.809805
 31
0.0
  0
LINE
  8
ITEM_50
  5
6F
 10
169.102553
 20
114.309805
 30
0.0
 11
169.102553
 21
123.309805
 31
0.0
  0
LINE
  8
ITEM_50
  5
70
 10
27.102553
 20
164.809805
 30
0.0
 11
39.102553
 21
164.809805
 31
0.0
  0
LINE
  8
ITEM_50
  5
71
 10
29.602553
 20
172.809805
 30
0.0
 11
36.602553
 21
172.809805
 31
0.0
  0
LINE
  8
ITEM_50
  5
72
 10
86.081827
 20
178.809805
 30
0.0
 11
86.081827
 21
164.809805
 31
0.0
  0
LINE
  8
ITEM_50
  5
73
 10
150.102553
 20
190.830531
 30
0.0
 11
98.102553
 21
190.830531
 31
0.0
  0
ARC
  8
ITEM_50
  5
74
 10
150.102553
 20
178.809805
 30
0.0
 40
12.02072599999999
 50
0.0
 51
90.0
  0
LINE
  8
ITEM_50
  5
75
 10
162.1232779999999
 20
115.309805
 30
0.0
 11
160.102553
 21
118.809805
 31
0.0
  0
LINE
  8
ITEM_50
  5
76
 10
162.1232779999999
 20
122.309805
 30
0.0
 11
160.102553
 21
118.809805
 31
0.0
  0
LINE
  8
ITEM_50
  5
77
 10
79.302553
 20
115.309805
 30
0.0
 11
168.902553
 21
115.309805
 31
0.0
  0
LINE
  8
ITEM_50
  5
78
 10
79.302553
 20
122.309805
 30
0.0
 11
168.902553
 21
122.309805
 31
0.0
  0
LINE
  8
ITEM_50
  5
79
 10
167.602553
 20
124.809805
 30
0.0
 11
80.602553
 21
124.809805
 31
0.0
  0
LINE
  8
ITEM_50
  5
7A
 10
80.602553
 20
112.809805
 30
0.0
 11
167.602553
 21
112.809805
 31
0.0
  0
LINE
  8
ITEM_50
  5
7B
 10
160.102553
 20
118.809805
 30
0.0
 11
158.602553
 21
118.809805
 31
0.0
  0
LINE
  8
ITEM_50
  5
7C
 10
33.102553
 20
184.0776319999999
 30
0.0
 11
33.102553
 21
172.809805
 31
0.0
  0
ARC
  8
ITEM_50
  5
7D
 10
150.102553
 20
177.809805
 30
0.0
 40
19.0
 50
0.0
 51
90.0
  0
ARC
  8
ITEM_50
  5
7E
 10
98.102553
 20
177.809805
 30
0.0
 40
19.0
 50
90.0
 51
180.0
  0
LINE
  8
ITEM_50
  5
7F
 10
27.102553
 20
164.809805
 30
0.0
 11
27.102553
 21
195.309805
 31
0.0
  0
LINE
  8
ITEM_50
  5
80
 10
39.102553
 20
195.309805
 30
0.0
 11
39.102553
 21
164.809805
 31
0.0
  0
LINE
  8
ITEM_50
  5
81
 10
36.602553
 20
172.809805
 30
0.0
 11
36.602553
 21
196.6098049999999
 31
0.0
  0
LINE
  8
ITEM_50
  5
82
 10
29.602553
 20
172.809805
 30
0.0
 11
29.602553
 21
196.6098049999999
 31
0.0
  0
LINE
  8
ITEM_50
  5
83
 10
36.602553
 20
189.830531
 30
0.0
 11
35.352553
 21
189.108843
 31
0.0
  0
LINE
  8
ITEM_50
  5
84
 10
29.602553
 20
189.830531
 30
0.0
 11
30.852553
 21
189.108843
 31
0.0
  0
ARC
  8
ITEM_50
  5
85
 10
150.102553
 20
178.809805
 30
0.0
 40
8.0
 50
0.0
 51
90.0
  0
ARC
  8
ITEM_50
  5
86
 10
98.102553
 20
178.809805
 30
0.0
 40
8.0
 50
90.0
 51
180.0
  0
LINE
  8
ITEM_50
  5
87
 10
90.102553
 20
164.809805
 30
0.0
 11
79.102553
 21
164.809805
 31
0.0
  0
LINE
  8
ITEM_50
  5
88
 10
90.102553
 20
178.809805
 30
0.0
 11
90.102553
 21
164.809805
 31
0.0
  0
LINE
  8
ITEM_50
  5
89
 10
150.102553
 20
186.809805
 30
0.0
 11
98.102553
 21
186.809805
 31
0.0
  0
LINE
  8
ITEM_50
  5
8A
 10
98.102553
 20
196.809805
 30
0.0
 11
150.102553
 21
196.809805
 31
0.0
  0
LINE
  8
ITEM_50
  5
8B
 10
79.102553
 20
164.809805
 30
0.0
 11
79.102553
 21
177.809805
 31
0.0
  0
ENDSEC
  0
EOF
